Suonare Chitarra . com

Il Blog del Corso di Chitarra più Facile. Per chi vuole Divertirsi

Esercizi Chitarra: il Tapping di “Hot for Teacher”, Van Halen

Share Button

Esercizi Chitarra: oggi propongo uno dei migliori esercizi di chitarra per imparare a domare il tapping, preso da una canzone del maestro del suonare la chitarra e del tapping… Eddie Van Halen

(se non sai ancora suonare la chitarra puoi imparare le basi in poco tempo con il corso di chitarra gratis)

Sappiamo tutti quanto Eddie Van Halen riesca a domare completamente la tecnica del tapping. Fu il primo a suonare la chitarra come la suona lui. Eddie è colui che ha portato questa tecnica a livelli esasperati, quindi… impossibile non studiare delle sue canzoni per migliorare la tua tecnica!

Recentemente abbiamo visto un esercizio di tapping preso da “Eruption”, una canzone-simbolo per la tecnica del tapping (ovviamente dei Van Halen).

Questa volta andiamo su un pezzo ancora più difficile per la tecnica del tapping. Più difficile per vari motivi: bisogna allargare bene le dita della mano sinistra ed è facile far suonare altre corde facendo venire fuori un suono disastroso dalla chitarra, quindi ottimo per migliorare.

Il pezzo dei Van Halen che ti propongo per migliorare a suonare la chitarra è “Hot for Teacher”, una canzone storica e favolosa per qualsiasi chitarrista rock.

Puoi ascoltare la canzone tramite il video ufficiale qui sotto (l’esercizio in tapping sarà l’introduzione, la primissima cosa che fa Eddie quando inizia a suonare la chitarra):

Ok adesso che ti ricordi la canzone o che l’hai sentita per la prima volta ecco un video dove puoi vedere in modo veramente chiaro l’esecuzione dell’esercizio di chitarra e di tutta la canzone:

Bene, adesso ti mancano solo le tab.

Per le tab della parte in tapping puoi vedere qui sotto, se invece vuoi scaricare le tab complete di tutta la canzone puoi scaricare le risorse gratuite per chitarrsti.

h- hammer on
p- pull off
s- slide
/- continuous fast picking
E|---------------------------|---------------------------|
B|---------------------------|---------------------------|
G|---------------------------|---------------------------|
D|---------------------------|---------------------------|
A|-12p7p3p0h3h7-12p7p3p0h3h7-|-12p7p3p0h3h7-12p7p3p0h5h9-|
E|---------------------------|---------------------------|

E|-----------------------------|
B|-----------------------------|
G|-----------------------------|
D|-----------------------------|
A|-12p9p5p0h5h9-12p9p5p0h5h12--|
E|-----------------------------|

E|----------------------------|
B|----------------------------|
G|----------------------------|
D|-------------------12p0h3h7-|
A|-12p9p5p0h5h9-12p9----------|
E|----------------------------|

E|---------------------------|----------------------------|
B|---------------------------|----------------------------|
G|---------------------------|----------------------------|
D|-12p7p3p0h3h7-12p7p3p0h3h7-|-12p7p3p0h3h7-12p7p3p0h5h9--|
A|---------------------------|----------------------------|
E|---------------------------|----------------------------|

E|------------------------------|
B|------------------------------|
G|------------------------------|
D|-12p9p5p0h5h9-12p9p5p0h5h9-12p|
A|------------------------------|
E|------------------------------|

E|------------------------|---------------------------|
B|------------------------|---------------------------|
G|---------------12p0h3h7-|-12p7p3p0h3h7-12p7p3p0h5h9-|
D|-9---9----9p7-----------|---------------------------|
A|------------------------|---------------------------|
E|------------------------|---------------------------|

E|---------------------------|------------------------------|----------12p5h8-|
B|---------------------------|------------------------------|-----------------|
G|-12p9p5p0h5h9-12p9p5p0h3h7-|-12p7p3p0h3h7-12p7p3p0h5h9-12p|-9-----9---------|
D|---------------------------|------------------------------|-----------------|
A|---------------------------|------------------------------|-----------------|
E|---------------------------|------------------------------|-----------------|

E|-12p8p7p5-----------------------|--------------------------------|
B|----------8h-12p8p7p5-----------|--------------------------------|
G|----------------------8h-12p8p7p|-5----------------------------2-|
D|--------------------------------|---8h-12p8p7p5----------------2-|
A|--------------------------------|---------------8h-12p10p7p5p0---|
E|--------------------------------|------------------------------2-|

Buon esercizio!

Ricorda che puoi scaricare la tab completa cliccando qui.

(se non sai ancora suonare la chitarra o non sai leggere le tab, puoi imparare le basi in poco tempo con il corso di chitarra gratis)

Share Button

1 Comment

  1. David,non mi fa vedere i video!!

Leave a Reply

Your email address will not be published.

*

(C) Copyright - DMC srls - Via Ampere 16 - Padova 35136 (PD) - david@suonarechitarra.com - PRIVACY