Suonare Chitarra . com

Il Blog del Corso di Chitarra più Facile. Per chi vuole Divertirsi

Esercizi Chitarra: Suonare lo String Skipping di Paul Gilbert

Share Button

Esercizi Chitarra: oggi vediamo degli esercizi per migliorare lo string skipping, una tecnica di cui Paul Gilbert è maestro.

Paul Gilbert, insieme a Nuno Bettencourt (chitarrista degli Extreme) sono due maestri dello String Skipping e per questo, ho voluto proporre alcuni lick di Paul Gilbert per migliorare questa tecnica.

Se non sai suonare la chitarra e vuoi imparare, parti dal corso di chitarra facile.

Brevemente, se non lo conosci, lo string skipping è una tecnica complicata che consiste nel suonare corde distanti tra loro e solitamente la tecnica si abbina al legato. Adesso capirai meglio come.

Vediamo subito il primo lick di Paul Gilbert preso dalla canzone Superheroes dei Racer X:

e|-12---------------12----------------------|
B|------------------------------------------|
G|---18-15-12-15-18---18-15-12-15-18--------|
D|------------------------------------------|
A|------------------------------------------|
E|------------------------------------------|

Come puoi notare passa dalla prima alla terza corda e le note della terza corda le dovresti legare. E’ importante, per questa tecnica, avere anche una buona padronanza della pennata alternata.

Il Lick o esercizio che hai suonato prima era abbastanza “semplice“, ma adesso vediamo come ci si comporta quando bisogna plettrare tutte le note di un passaggio in string skipping. Spiegarlo è molto più semplice che farlo, infatti, dovrai suonare questo altro esercizio partendo con una pennata verso il basso e poi verso l’alto, sempre con questo schema, prima basso poi alto, anche quando cambi di corda:

e|-12-13-15-------------------------------|
B|-------------------12-14-15-------------|
G|----------12-13-15----------------------|
D|----------------------------12-14-15----|
A|----------------------------------------|
E|----------------------------------------|

e|----------------------------------------|
B|----------------------------------------|
G|-12-13-15-------------------------------|
D|-------------------12-13-15-------------|
A|----------12-14-15----------------------|
E|----------------------------12-13-15-12~|

Benissimo! Se ti riesce bene l’ultimo esercizio allora puoi provare questo. Più complessa la pennata qui. Come puoi vedere sono segnate sopra le tab le pennate in questo modo:

D = down (pennata verso il basso)
U= up (pennata verso l’alto)
h = Hammer on
p = Pull off

ecco la tab dell’esercizio:

    D  p  D  p  D  U  h  U  D  p  D  p  D  U  h  U
e--15-12----------------12-15-12----------------12-
B--------------------------------------------------
G--------16-12----12-16----------16-12----12-16----   ripeti tutto più volte
D--------------14----------------------------------
A--------------------------------------14----------
E--------------------------------------------------

Ed ecco che se conosci bene e padroneggi le tecniche di tapping, legato e sweep picking, puoi creare dei lick veramente interessanti e pazeschi come questo:

e|----------------------12h13h16h(17)/(19)---|
B|-------------------12----------------------|
G|----------------13-------------------------|
D|-------------14----------------------------|
A|-------------------------------------------|
E|----12h13h16-------------------------------|

Qui i numeri tra parentesi sono i tasti da suonare in tapping con la mano destra.

Se vuoi capire lo straordinario effetto che può dare un passaggio in string skipping, puoi vedere questi due video. Infatti, probabilmente non riuscirai a capire il suono che ne esce se non riesci a farlo ad alte velocità come deve essere eseguito. Qui puoi vedere due chitarristi che riescono a portare lo string skipping al suo meglio. Il primo è Paul Gilbert, mentre il secondo è Chris Broderick dei Megadeath:

Se vuoi esercitarti ancora in altre tecniche guarda la sezione degli esercizi per chitarra.

Share Button

4 Comments

  1. ciao david mi piace molto il video di chris broderick riusciresti per caso a tirar giù le tab?

  2. David Carelse

    April 19, 2011 at 3:51 pm

    Ok Giz, cercherò di farlo, nel frattempo ti avverto che il pezzo è eseguito con una 7 corde.

  3. Io passo… e lascio perdere…

  4. Eugenio (Rudolf)

    February 5, 2013 at 5:32 pm

    Fantastico.. non ci sono altre parole

Leave a Reply

Your email address will not be published.

*

(C) Copyright - DMC srls - Via Ampere 16 - Padova 35136 (PD) - david@suonarechitarra.com - PRIVACY