Suonare Chitarra . com

Il Blog del Corso di Chitarra più Facile. Lezioni di Chitarra per chi vuole Divertirsi

Category: Canzoni Facili (page 1 of 8)

Canzoni Facili Chitarra

Tutorial e Tab: “We Are The Champions” dei Queen (Lezione Chitarra Elettrica)

Questa settimana vediamo una canzone che ha fatto la storia non solo, è entrata a far parte della vita di qualsiasi persona. Infatti, quando c’è da festeggiare una vittoria la prima canzone che ci viene in mente è certamente We Are The Champions dei Queen. LEGGI TUTTO

Tutorial: Purple Haze, Jimi Hendrix (Canzone Facile)

Jimi Hendrix è certamente uno dei più importanti musicisti di sempre (clicca qui per scoprire il perchè) e sicuramente Purple Haze è uno dei LEGGI TUTTO

Sol Bareoto del Mas-cio | Rumatera | Accordi e Tutorial

Il tutorial di questa settimana è un po’ particolare, certamente pochi di voi conosceranno i Rumatera ed il brano “Sol Bareoto del Mas-cio“, ma potrebbe essere un ottimo modo per conoscere qualcosa di particolare. Un gruppo formato nel LEGGI TUTTO

Tutorial e Accordi: The River, Bruce Springsteen

Questa settimana un autore che stranamente non avevamo ancora vista tra i nostri tutorial per chitarra: Bruce Springsteen con il brano The River.

Una canzone facile da suonare del “Boss LEGGI TUTTO

Tutorial: Come Suonare Master of Puppets dei Metallica

Questa settimana un brano che ha fatto la storia del Metal! Master of Puppets dei Metallica. Me l’avete richiesto veramente tanto sul canale di YouTube ed alla fine si è classificato quarto nel contest che abbiamo fatto all’interno del gruppo degli Strimpellari.

La difficoltà LEGGI TUTTO

Lezione e Tutorial Chitarra: In The End – Linkin Park

Questa settimana il tutorial è per chitarra elettrica e vediamo una canzone molto semplice da suonare, ma che presenta 2 particolarità interessanti. Sto parlando del brano “In The End” dei Linkin Park.

A 1 settimana e mezza dalla morte di Chester Bennington avrei voluto LEGGI TUTTO

Tutorial: Come Suonare “Wonderful Tonight” di Eric Clapton

Una melodia facile, un’arpeggio come accompagnamento, pochi accordi di chitarra. Nella lezione di chitarra di oggi vediamo il tutorial per imparare a suonare Wonderful Tonight del grande chitarrista Eric Clapton.

Seconda classificata nell’ultimo contest che abbiamo fatto sul gruppo LEGGI TUTTO

Nothing Else Matters – Metallica: Tutorial Arpeggi e Accordi, Fingerpicking

Nothing Else Matters dei Metallica è diventata sempre di più la prima canzone da imparare con la chitarra per chi ascolta Metal e vuol iniziare a suonare questo strumento che io amo.

La verità è che questa canzone non è così facile come sembra. Se la vogliamo fare esattamente LEGGI TUTTO

Lezioni di Chitarra: Ritmica in Sestine, Let’s Hurt Tonight dei One Republic, Tutorial

Il tutorial di questa settimana è Let’s Hurt Tonight dei One Republic, una canzone facile da suonare, ma che mi permette di fare una lezione di chitarra sulla ritmica in sestine e sul barrè.

Il brano infatti deve essere suonato tutto con il barrè (solo per questioni stilistiche LEGGI TUTTO

Canzoni Facili da Spiaggia: Drive degli Incubus

Questa settimana, dato che si avvicina per molti il momento di andare in spiaggia, ci divertiamo con il tutorial di una canzone facile da suonare con la chitarra, una tipica canzone da spiaggia di 17 anni fa, Drive degli Incubus.

Si tratta di un brano facile sicuramente, ma attenzione perchè ci sono LEGGI TUTTO

Lezioni di Chitarra e Loop Station: Galway Girl di Ed Sheeran

Questa settimana, oltre al tutorial di chitarra di Galway Girl di Ed Sheeran vediamo una lezione per fare i primi passi con la Loop Station. Più in basso vedi anche un dimostrazione del funzionamento della Loop Station della Boss RC-300 (non è quella utilizzata da Ed Sheeran).

Il brano è molto semplice, LEGGI TUTTO

Lezioni di Chitarra: Give It Away, Red Hot Chili Peppers (Tutorial e Tab)

Questa settimana torna il funk-rock dei Red Hot Chili Peppers con una delle loro canzoni simbolo, che ha entusiasmato una generazione di giovani negli anni ’90. Give It Away è una canzone di grande effetto e con un arrangiamento di chitarra elettrica molto interessante (alla chitarra John Frusciante).

Risorse:

Corso di chitarra gratuito in 4 lezioni per partire da zero.

Guitar Sniper: consigli per studiare chitarra ottenendo i migliori risultati con il minimo sforzo.

Tutti i corsi creati con il metodo Chitarra Facile™.

Sotto trovi anche la base musicale per chitarra.

Brano Originale

Qui puoi vedere il video ufficiale della canzone:

Base Musicale

Qui di seguito hai la base musicale senza la chitarra di John Frusciante su cui puoi suonare il brano Give It Away dei Red Hot Chili Peppers:

Tab per Chitarra

Qui di seguito hai le tab delle varie parti del brano:

Introduzione:


E|--------------8-----11--------11--------11----------|
B|--------------8-------------------------------------|
G|-------------10b12-----b12r10----b12r10----b12r10---|
D|-7--7-7-7-7-----------------------------------------|
A|-0--0-0-0-0-----------------------------------------|
E|----------------------------------------------------|


E|-11--------11---------------------------------------|
B|----------------------------------------------------|
G|----b12r10----b12r10--------------------------------|
D|----------------------------------------------------|
A|----------------------------------------------------|
E|----------------------------------------------------|


E|--------------8-------------------------------------|
B|--------------8-------------------------------------|
G|-------------10b12----------------------------------|
D|-7--7-7-7-7---------5-5---5-5---5-5---5-5---5-5-----|
A|-0--0-0-0-0-------------3-----3-----3-----3-----3br-|
E|----------------------------------------------------|


Strofa:


E|----------------------------------------------------|
B|----------------------------------------------------|
G|------7-6-5b--------------7--8--9-------------------|
D|----x--------5-5-x-7----7---------------------------|
A|-0--------------------------------------------------|
E|----------------------------------------------------|


E|----------------------------------------------------|
B|----------------------------------------------------|
G|----7-6-5------------------7--5b6-------------------|
D|----------x-5b-x-5-7--------------5b----------------|
A|-0----------------------0---------------------------|
E|----------------------------------------------------|


Ritornello:


E|----------------------------------------------------|
B|----------------------------------------------------|
G|----------------------------------------------------|
D|-7-7-7-7-7-7-7-7-7-7-7-7-7-7-7-7...-----------------|
A|-0-0-0-0-0-0-0-0-0-0-0-0-0-0-0-0...-----------------|
E|----------------------------------------------------|


E|-8-8---7-7---7-5------------------------------------|
B|-8-8---7-7---7-5------------------------------------|
G|----------------------------------------------------|
D|-----7-----7-----7-7-7-7-7-7-7-7-7-7...-------------|
A|-----0-----0-----0-0-0-0-0-0-0-0-0-0...-------------|
E|----------------------------------------------------|


E|-8--8--8--8--8--8--8--8-----------------------------|
B|-8--8--8--8--8--8--8--8-----------------------------|
G|-7b-7b-7b-7b-7b-7b-7b-7b----------------------------|
D|----------------------------------------------------|
A|----------------------------------------------------|
E|----------------------------------------------------|


Ultimo
LEGGI TUTTO

Older posts

(C) Copyright - DMC srls - Via Ampere 16 - Padova 35136 (PD) - david@chitarrafacile.com - PRIVACY