Share Button

Suonare Chitarra: oggi vediamo un paio di lick di Angus Young per suonare la chitarra integrando il suo stile con il tuo.

Angus Young come tutti i grandi chitarristi ha portato novità e stile nuovi per suonare la chitarra, per questo, adesso analizzeremo alcuni lick di Angus in modo che tu potrai provare e sperimentare questi lick di chitarra per introdurre novità nei tuoi assoli.

Se non sai suonare la chitarra scarica il corso di chitarra base gratuito. Se vuoi sapere anche come migliorare più velocemente a suonare la chitarra puoi scaricare gratuitamente un video che ti spiega come fare qui: Migliorare velocemente a suonare la chitarra

Lo stile di Angus Young ha influenze folk e blues che sono i generi di musica che lui ascoltava quando era teenager, che lui ha integrato nel suo Hard Rock. Probabilmente anche tu hai le maggiori influenze nei tuoi assoli da canzoni o generi che hai ascoltato prima di cominciare a suonare la chitarra.

Angus usa principalmente pentatoniche blues minori. Il primo lick che andiamo a vedere è una discesa (da note alte a basse) dall’assolo della canzone “Back in Black“.

Lick 1 – Suonare la Chitarra come Angus Young

e|-15p12h15p12----12-------------------------------------------------|
B|-------------15----15p12h15p12----12-------------------------------|
G|-------------------------------15----15p12h14p12----14-------------|
D|-------------------------------------------------14----14p12h14p12-|
A|-------------------------------------------------------------------|
E|-------------------------------------------------------------------|

Questa è una bella discesa, tipica di Angus Young, che puoi provare a inserire nei tuoi assoli. Non fermarti a inserire questo lick così com’è però! Sperimenta, adatta ogni lick al tuo stile, prova e riprova, usa delle tecniche diverse per eseguire il lick. Usando ad esempio il pull-off come descritto nella tab riuscirai ad eseguirlo più velocemente.

Il prossimo lick non è preso da un assolo, ma è l’introduzione di “Thunderstruck“.

Lick 2 – Suonare la Chitarra come Angus Young

e|------------------------------------|--------------------------------|
B|--0h4p0h7p0h4p0h7p0h4p0h7p0h4p0h7p0h|4p0h7p0h4p0h7p0h4p0h7p0h4p0h7p0h|
G|------------------------------------|--------------------------------|
D|------------------------------------|--------------------------------|
A|------------------------------------|--------------------------------|
E|------------------------------------|--------------------------------|

e|----------------------------------|--------------------------------|
B|--5p0h8p0h5p0h8p0h5p0h8p0h5p0h8p0h|5p0h8p0h5p0h8p0h5p0h8p0h5p0h8p0h|
G|----------------------------------|--------------------------------|
D|----------------------------------|--------------------------------|
A|----------------------------------|--------------------------------|
E|----------------------------------|--------------------------------|

e|-------------------------------------|--------------------------------|
B|--12p0h10p0h9p0h10p0h9p0h7p0h9p0h5p0h|7p0h4p0h5p0h4p0h5p0h4p0h5p0h4p0h|
G|-------------------------------------|--------------------------------|
D|-------------------------------------|--------------------------------|
A|-------------------------------------|--------------------------------|
E|-------------------------------------|--------------------------------|

Questo è uno dei più famosi tapping ad una mano. Se già hai una buona padronanza di questa tecnica probabilmente non hai nessun problema ad eseguire questo lick.

Ciò che è più importante non è tanto inserire questo pezzo nei tuoi assoli, perchè non avrebbe senso, piuttosto è un bell’esempio da cui puoi trarre spunto per inserire nei tuoi assoli un bel passaggio con tapping ad una mano. L’effetto potrebbe essere veramente originale e interessante per chi ascolta.

Adesso non ti resta che provare, sperimentare veramente con curiosità e passione questi lick per inserirli nel tuo stile, adattarli e farli tuoi, rendendoli automatici.

Questo tipo di metodo per migliorare i tuoi assoli è veramente molto importante.

Buona suonata!

Share Button