Share Button

Lezioni Chitarra: oggi vediamo come suonare una delle canzoni rock più famose del gruppo AC/DC. Vediamo come suonare il famoso intro di Thunderstruck.

Thunderstruck è uno dei singoli più noti della band australiana e soprattutto, l’intro che andiamo a vedere oggi è un pezzo storico di chitarra. La canzone è stata composta dal chitarrista Angus Young, dal fratello Malcolm (secondo chitarrista) e Brian Johnson (cantante).

Intanto puoi vedere e sentire la canzone e il video originali qui (se vuoi imparare a suonare la chitarra scarica le lezioni di chitarra gratuite, se invece sai già suonare non perdere il video “Migliorare velocemente“):Benissimo, non lasciarti fuorviare dalle immagini di questo video. Perchè ti dico questo? Perchè in questo video si vede Angus Young che suona l’introduzione di Thunderstruck con la tecnica del tapping ad una mano, mentre, in realtà quel pezzo di chitarra viene suonato plettrando ogni nota.

Come suonare l’introduzione di Thunderstruck

Ecco un video che ti spiega molto bene come suonare Thunderstruck (l’introduzione):

Come puoi notare, una cosa molto importante che sbagliano molti chitarristi quando si accingono a suonare questa canzone degli AC/DC, è quella di partire con la plettrata verso il basso. In questa canzone, durante l’introduzione devi partire con la corda vuotadi SI plettrando verso l’alto per poi plettrare giustamente verso il basso con la prima nota sul primo quarto della battuta successiva.

Ecco qui le tab delle pringipali figure dell’intro:

    Figura a:
e|---------------------------------------------------------------------------|
B|-0-4-0-7-0-4-0-7-0-4-0-7-0-4-0-7-0-4-0-7-0-4-0-7-0-4-0-7-0-4-0-7-----------|
G|---------------------------------------------------------------------------|
D|---------------------------------------------------------------------------|
A|---------------------------------------------------------------------------|
E|---------------------------------------------------------------------------|
     Figura b:
e|---------------------------------------------------------------------------|
B|-0-5-0-8-0-5-0-8-0-5-0-8-0-5-0-8-0-5-0-8-0-5-0-8-0-5-0-8-0-5-0-8-----------|
G|---------------------------------------------------------------------------|
D|---------------------------------------------------------------------------|
A|---------------------------------------------------------------------------|
E|---------------------------------------------------------------------------|
    Figura c:
e|---------------------------------------------------------------------------|
B|-0-12-0-10-0-9-0-10-0-9-0-7-0-9-0-5-0-4-0-7-0-4-0-5-0-4-0-5-0-4------------|
G|---------------------------------------------------------------------------|
D|---------------------------------------------------------------------------|
A|---------------------------------------------------------------------------|
E|---------------------------------------------------------------------------|

Questo è tutto ciò che ti serve per suonare l’intro di Thunderstruck. Se vuoi puoi scaricare lo spartito completo della canzone a questo link: Thunderstruck – AC/DC tab

Al link troverai il pacchetto di risorse per chitarristi in cui troverai anche le tab di questa canzone.

e|---------------------------------------------------------------------------|
B|-0-4-0-7-0-4-0-7-0-4-0-7-0-4-0-7-0-4-0-7-0-4-0-7-0-4-0-7-0-4-0-7-----------|
G|---------------------------------------------------------------------------|
D|---------------------------------------------------------------------------|
A|---------------------------------------------------------------------------|
E|---------------------------------------------------------------------------|
     Figure b:
e|---------------------------------------------------------------------------|
B|-0-5-0-8-0-5-0-8-0-5-0-8-0-5-0-8-0-5-0-8-0-5-0-8-0-5-0-8-0-5-0-8-----------|
G|---------------------------------------------------------------------------|
D|---------------------------------------------------------------------------|
A|---------------------------------------------------------------------------|
E|---------------------------------------------------------------------------|
    Figure c:
e|---------------------------------------------------------------------------|
B|-0-12-0-10-0-9-0-10-0-9-0-7-0-9-0-5-0-4-0-7-0-4-0-5-0-4-0-5-0-4------------|
G|---------------------------------------------------------------------------|
D|---------------------------------------------------------------------------|
A|---------------------------------------------------------------------------|
E|---------------------------------------------------------------------------|
Share Button