Suonare Chitarra . com

Il Blog del Corso di Chitarra più Facile. Per chi vuole Divertirsi

Assoli Chitarra: l’Outro di November Rain dei Guns and Roses

Share Button

Assoli Chitarra: ecco come suonare uno degli assoli più beli della storia del rock.

Tempo fa avevo chiesto quali erano i vostri assoli di chitarra preferiti. Sono pienamente d’accordo con gli assoli che sono stati citati e che l’assolo finale (l’outro) di November Rain dei Guns and Roses è sicuramente uno tra i migliori assoli di chitarra (uno dei tantissimi, ma è sicuramente un bell’assolo).

Oltre ad essere un bell’assolo, a livello tecnico è abbastanza semplice da poterlo utilizzare come esercizio per migliorare.

Prima di tutto vediamo questo video che ho trovato su YouTube in cui puoi vedere e sentire una buona esecuzione dell’assolo (tanto per avere un’idea). Nel video puoi vedere anche le tab che comunque ti ho messo anche sotto.

Video: Assolo Finale November Rain

Considerazioni

E’ necessario accordare la chitarra mezzotono più in basso. Quindi tutte le note delle corde vuote devono essere bemolli (MIb, LAb, REb, SOLb, SIb, MIb).

Ci sono diversi aspetti di questo assolo che, se trattati con la giusta attenzione, ti possono aiutare a migliorare la tecnica. Eccoli:

1. Bending

Questo aspetto è molto importante anche per i veterani. I primi bending sul diciannovesimo e ventesimo tasto sono fondamentali per la riuscita dell’assolo. Fai quindi molta attenzione a come esegui quelle note, in particolare prova a variare:

– la durata del bending

– il tempo (ritardo o anticipo)

Non c’è vibrato ala fine del bending. Prova diverse esecuzioni degli stessi bending e se possibile registrati e riascoltati, così potrai sentire meglio l’effetto che fa.

2. Legati

Dopo i primi bending c’è una bella sequenza di pennate e legati con note in discesa. Molto utile per migliorare:

– l’agilità della mano sinstra

– le tecniche del legato come hammer-on e pull-off

– la coordinazione tra mano sinistra e destra

3. Ultimi tasti

I tasti più difficili da suonare sono ovviamente gli ultimi. Questo assolo è un ottimo esercizio per migliorare il tocco e il suono quando premi gli ultimi tasti della tastiera della chitarra.

Per qualsiasi domanda o commento puoi scrivere in fondo all’articolo.

Risorse utili: clicca qui per delle lezioni gratuite sulla solistica. Potrai imparare diversi lick per rendere i tuoi assoli sempre più professionali e migliori.

Tab

Ecco la tab di questa parte della canzone:

|-19b20-------19----20b22-|-(22)--20-19-20--15----15-|
|-------------------------|--------------------16----|
|-------------------------|--------------------------|
|-------------------------|--------------------------|
|-------------------------|--------------------------|
|-------------------------|--------------------------|

|-16----15h16p15----15-------15-|
|----------------18-------18----|
|-------------------------------|
|-------------------------------|
|-------------------------------|
|-------------------------------|

|-16-15-16p15----------------15----------------------------|
|-------------18-16----16-18----18-16-18-15-16-18-16-15-16-|
|-------------------17-------------------------------------|
|----------------------------------------------------------|
|----------------------------------------------------------|
|----------------------------------------------------------|

|-------------------------------------------------------------------|
|-15b16==(16)r(15)b16==(16)r(15)----15-16-18-15--16-18-15-----------|
|--------------------------------17-----------------------17--------|
|-------------------------------------------------------------------|
|-------------------------------------------------------------------|
|-------------------------------------------------------------------|

|-19b20----19--------20b22-|-(20)------20-19-20-15----15---|
|--------------------------|-----------------------16------|
|--------------------------|-------------------------------|
|--------------------------|-------------------------------|
|--------------------------|-------------------------------|
|--------------------------|-------------------------------|

|-16--------15h16p15----15-------------------|
|--------------------18----------15-16---18--|
|--------------------------------------------|
|--------------------------------------------|
|--------------------------------------------|
|--------------------------------------------|

|-15--16-15h16p15-------15-------15-------------------------15-16p=15-------15-------|
|-----------------18-16----16-18----18p16-18-16----15-16-18-----------18-16----16h18-|
|-----------------------------------------------17-----------------------------------|
|------------------------------------------------------------------------------------|
|------------------------------------------------------------------------------------|
|------------------------------------------------------------------------------------|

|-15---------------------------------------------------------------------|
|----18-16----15-16-18-15----16-15---------------------------------------|
|----------17-------------17-------17-15-17-(17)-15-13-15-13-15-13-------|
|------------------------------------------------------------------12----|
|------------------------------------------------------------------------|
|------------------------------------------------------------------------|

|-19b20-------19--------20b22-|-(22)------20-19---------------------|
|-----------------------------|-------------------------------------|
|-----------------------------|-------------------19b20-------19-17-|
|-----------------------------|-------------------------------------|
|-----------------------------|-------------------------------------|
|-----------------------------|-------------------------------------|

|---------------------------------------------|
|---------------------------------------------|
|-20--------19-17-20b22r(20)b24==(24)r(20)----|
|---------------------------------------------|
|---------------------------------------------|
|---------------------------------------------|

|-------20---(20)-----(20)-------15-20-19-20-|
|--------------------------------------------|
|-17-20--------------------------------------|
|--------------------------------------------|
|--------------------------------------------|
|--------------------------------------------|

|-15-18-16-18-15-16p15----15-------15----15----15-----|
|----------------------18----16-18----16----16----16--|
|-----------------------------------------------------|
|-----------------------------------------------------|
|-----------------------------------------------------|
|-----------------------------------------------------|

|-19b20-------19----20b22-|-(22)--20-19-20-15----15-|
|-------------------------|-------------------16----|
|-------------------------|-------------------------|
|-------------------------|-------------------------|
|-------------------------|-------------------------|
|-------------------------|-------------------------|

|-16----15h16p15----15-------15-|
|----------------18-------18----|
|-------------------------------|
|-------------------------------|
|-------------------------------|
|-------------------------------|

|-18b20r(18)b20========(20)r-15----15-------|
|-------------------------------16----16----|
|----------------------------------------17-|
|-------------------------------------------|
|-------------------------------------------|
|-------------------------------------------|

|---------------------------------------------|-19b20----------19----20b22--|
|---------------------------------------------|-----------------------------|
|-(17)-15-17-17-15----------------------------|-----------------------------|
|------------------17-16-15-15-15-13-15-13----|-----------------------------|
|------------------------------------------15-|-----------------------------|
|---------------------------------------------|-----------------------------|

|-(22)-------20-19-20-15----15-|-16----15h16p15----15-----------15-|
|------------------------16----|----------------18-----------18----|
|------------------------------|-----------------------------------|
|------------------------------|-----------------------------------|
|------------------------------|-----------------------------------|
|------------------------------|-----------------------------------|

|-15h16h18-15h16h18-15h16h18p16p15----16----15h16p15----15------------|
|----------------------------------18----18----------18----18b20r(18)-|
|---------------------------------------------------------------------|
|---------------------------------------------------------------------|
|---------------------------------------------------------------------|
|---------------------------------------------------------------------|

|--------------------15-15b16==(16)r(15)----------------------|
|-16-----18-16-18-16-----------------------15b16==(16)r(15)---|
|-----17------------------------------------------------------|
|-------------------------------------------------------------|
|-------------------------------------------------------------|
|-------------------------------------------------------------|

|-19b20----19----20b22-|-(22)--20-19-20-15----15--|
|----------------------|-------------------16-----|
|----------------------|--------------------------|
|----------------------|--------------------------|
|----------------------|--------------------------|
|----------------------|--------------------------|

|-16----15-----------------------|----------------------|
|----------18-16-18b20r==(20)-16-|-15b17r(15)---(15)----|
|--------------------------------|----------------------|
|--------------------------------|----------------------|
|--------------------------------|----------------------|
|--------------------------------|----------------------|

|-----------------------------|------*|
|-(15)--(15)b16===(16)r=(15)--|------*|
|-----------------------------|------*|
|-----------------------------|------*|
|-----------------------------|------*|
|-----------------------------|------*|
Share Button

4 Comments

  1. Grazie , inizio subito ad impararlo :)

  2. David Carelse

    November 5, 2012 at 5:31 pm

    Buon divertimento Angelo! ;-)

  3. David, non capisco il motivo di accordare la chitarra in la bemolle.. non sarebbe meglio spostare la “diteggiatura equivalente” normalmente in LA, seguendo comunque lo spartito che hai pubblicato?
    Grazie

  4. Emil
    la chitarra mezzo tono sotto serve se vuoi suonare l’assolo con la canzone sotto

Comments are closed.

(C) Copyright - DMC srls - Via Ampere 16 - Padova 35136 (PD) - david@suonarechitarra.com - PRIVACY