Share Button

Esercizi di Chitarra: oggi vediamo alcune canzoni che presentano un ottimo sweep picking da studiare per esercitarsi e migliorare la tecnica.

(se non sai cos’è il sweep picking e vuoi imparare a suonare la chitarra da zero allora puoi seguire le lezioni di chitarra gratuite cliccando qui)

Molte volte, piuttosto di eseguire semplici e noiosi esercizi di chitarra, è possibile fare un ottimo lavoro di studio e miglioramento della tecnica studiando direttamente delle canzoni che presentano la tecnica in questione.

Io preferisco molto questo modo di esercitarsi, anche se ci sono pro e contro, però ci sono diversi aspetti positivi importanti:

– Un esercizio non ha personalità, mentre se studi una canzone devi dare anche un senso alle note che fai.

– Psicologicamente, la soddisfazione di riuscire a fare un esercizio è minore della soddisfazione della riuscita di un pezzo di una canzone.

– La stessa tecnica e lo stesso esercizio può essere utilizzato in modi diversi, per questo è importante studiare le esecuzioni dei chitarristi più interessanti.

Detto questo, ho voluto segnalarti 2 pezzi di canzoni da studiare per migliorare il sweep picking. Ho cercato di selezionare 2 stili completamente diversi in modo che tu possa avere un miglioramento più completo della tecnica ed una visione più ampia.

(Se vuoi migliorare i tuoi assoli clicca questo link: Chitarra Solistica)

Sweep Picking 1: The Glass Prison

The Glass Prison è una canzone dei Dream Theater. Alla chitarra abbiamo il super tecnico John Petrucci.

Caratteristiche Esercizio: Questo sweep è molto difficile, molto tecnico e senza molta personalità (quelle che sono le caratteristiche prncipali del genere progressive e di John Petrucci in particolare)

Video: lo sweep è al minuto 2:22.

Tab: qui di seguito hai la tab della parte in sweep picking.

|19-14----------14-19-14----------14-19-14-------|
|------15----15----------15----15----------15----|
|---------16----------------16----------------16-|
|gtr 3-------------------------------------------|
|------------------------------------------------|
|------------------------------------------------|
|------------------------------------------------|

|18-15----------------15-17-14----------------14-|
|------17----------17----------16----------16----|
|---------18-15-18----------------17-14-17-------|
|------------------------------------------------|
|------------------------------------------------|
|------------------------------------------------|
|------------------------------------------------|

|15-12----------12-15-12----------12-15-12-------|
|------12----12----------12----12----------12----|
|---------12----------------12----------------12-|
|------------------------------------------------|
|------------------------------------------------|
|------------------------------------------------|
|------------------------------------------------|

|13-9----------------9-|
|-----12----------12---|
|--------13-10-13------|
|----------------------|
|----------------------|
|----------------------|
|----------------------|

|14-10----------10-14-10----------10-14-10-------|
|------12----12----------12----12----------12----|
|---------11----------------11----------------11-|
|------------------------------------------------|
|------------------------------------------------|
|------------------------------------------------|
|------------------------------------------------|

|13-10----------------10-12-9---------------9-|
|------12----------12---------11---------11---|
|---------13-10-13---------------12-9-12------|
|---------------------------------------------|
|---------------------------------------------|
|---------------------------------------------|
|---------------------------------------------|

|10-7-------7-10-7-------7-10-7-----|
|-----8---8--------8---8--------8---|
|-------7------------7------------7-|
|-----------------------------------|
|-----------------------------------|
|-----------------------------------|
|-----------------------------------|

|-------------------21-24-|
|-------------17-17-------|
|----------18-------------|
|-------19----------------|
|----19-------------------|
|/17----------------------|
|-------------------------|

|22-17----------17-22-17----------17-22-17-------|
|------18----18----------18----18----------18----|
|---------19----------------19----------------19-|
|------------------------------------------------|
|------------------------------------------------|
|------------------------------------------------|
|------------------------------------------------|

Sweep Picking 2: Blitzkrieg

Questo sweep picking è firmato Yngwie Malmsteen. Anche se Malmsteen non è tecnico come John Petrucci, in quanto possiede altre qualità, sicuramente è un ottimo punto di riferimento per il sweep picking.

Caratteristiche Esercizio: questo sweep ha una melodia molto classica come ci si può aspettare da Malmsteen. Anche chi studia chitarra classica potrebbe fare questo sweep picking dando un’interpretazione diversa.

Unica cosa da fare attenzione è la presenza di sweep picking con barrè (sempre molto odiato dai chitarristi per la difficoltà).

Video e Tab: trovi tutto il necessario per eseguire l’esercizio a questo link: Sweep Picking Malmsteen.

Clicca qui per migliorare i tuoi assoli.

 

Share Button