Suonare Chitarra . com

Il Blog del Corso di Chitarra più Facile. Per chi vuole Divertirsi

Lezioni di Chitarra: Maria Maria, Carlos Santana

Share Button

Lezioni di Chitarra: oggi vediamo come suonare la melodia della chitarra elettrica di Maria Maria di Carlos Santana.

Maria Maria è un singolo estratto dall’album Supernatural di Carlos Santana, arrangiato da Bobby Martin ed eseguito insieme al duo R&B The Product G&B. Il singolo ebbe un successo enorme e rimase al numero 1 della classifica Billboard per ben 10 settimane, vinse un grammy per “la migliore performance pop di un duo o gruppo”.

Indubbiamente la canzone è molto carina e con questo articolo impareremo la parte melodica della chitarra elettrica che si ripete dopo i ritornelli.

L’esecuzione del pezzo della chitarra elettrica è molto semplice per chi suona già da tempo e molto interessante per chi sta ancora imparando (ricorda che puoi scaricare le lezioni di chitarra gratuite). In ogni caso è molto piacevole anche per i più esperti suonare questa canzone che prossimamente potremo studiare interamente.

Nel video che ti ho messo qui sotto puoi notare l’esecuzione del pezzo del brano (più in basso vedi le tab):

Ecco le tab per l’esecuzione del tema:

|-12-----12-13-12-------------12-----12-17-12-------------12--12-----
|------------------13------13------------------13------13 --15-------
|-----------------------14--------------------------14---------------
|--------------------------------------------------------------------
|--------------------------------------------------------------------
|--------------------------------------------------------------------

--12-13-12-------------12--12-12--12-12-12 -12-12-12-------|
------------13------13-----13-13--13-13-13 -13-13-13-15----|
-----------------14-------------------------------------14-|
-----------------------------------------------------------|
-----------------------------------------------------------|
-----------------------------------------------------------|

Qui sotto invece puoi ascoltare la canzone originale:

Il Suono

Per avere un suono che si avvicini a quello di Santana, parlando di strumentazione ed effetti della chitarra è possibile fare essenzialmente 2 cose senza scendere troppo nella specificità:

1. Seleziona il pickup al manico se puoi

2. Utilizza una distorsione (no overdrive) abbastanza satura (circa a metà)

Questo perchè Santana ha molto sustain ed anche se il sustain si può ottenere con mille variabili della chitarra o degli effetti, la cosa più semplice da fare è saturare un pò di più la distorsione. Il pickup al manico ti permette di avere quel suono un pò chiuso in se stesso che tende ad assomigliare ad un flauto.

Share Button

3 Comments

  1. A proposito di Santana
    cosa ne pensi del Fender Twin Amps? l’ho provato con una prs e dà suoni molto puliti e caldi.
    Se tu dovessi scegliere, prenderesti quello a due ingressi o il successivo con un ingresso?
    Ciao
    Fammi sapere

  2. Bello!! Twin forever !!! a mio avviso il più versatile…ma quello originale anni’70 è veramente un’altra cosa…. altri materiali…niente circuiti stampati, coni Jensen o Celestion di buon alnico,raddrizatori valvolari, e questo vale anche per altri ampli famosi come Marshall e Vox .
    Diversamente si può avere solo una simulazione in qualche caso più o meno attendibile ma mai paragonabile…, che il mercato mette a disposizione dell’utente medio . Personalmente, orientandomi sulla gamma Fender ho trovato meno sorprese sgradite a livello timbrico rispetto al passato…. Ciao

  3. david…. sei un pozzo di s. patrizio grazie degli aggiornamenti ciao

Leave a Reply

Your email address will not be published.

*

(C) Copyright - DMC srls - Via Ampere 16 - Padova 35136 (PD) - david@suonarechitarra.com - PRIVACY