Suonare Chitarra . com

Il Blog del Corso di Chitarra più Facile. Per chi vuole Divertirsi

Lezioni di Chitarra Elettrica: Esercizio per lo Shredding

Share Button

Lezioni di Chitarra Elettrica: oggi vediamo un esercizio utile per lo shredding da utilizzare anche come lick.

Il tipo di lick che vedremo e che imparerai tra poco in questa lezione di chitarra elettrica viene chiamato winding lick dal chitarrista che te lo mostrerà nel video, come lui chiama questo genere di lick perchè sono molto ripetitivi anche se di grande effetto.

Se vuoi conoscere altri lick clicca questo link: Lick Chitarra.

All’inizio del video infatti ti mostra quello che è un winding lick (come li chiama lui) nel blues, che sicuramente hai già sentito fare da Angus Young, Slash e altri chitarristi che mischiano molto il blues con l’hard rock.

Se non riesci a fare il lick perchè stai ancora imparando o devi ancora iniziare ad imparare a suonare la chitarra allora ti consiglio di scaricare il corso di chitarra gratuito, oppure il corso completo che trovi nella sezione “prodotti”.

Questo lick è ottimo per chi ama lo shredding. Lo stile musicale che si adatta meglio a questo esercizio o lick è l’hard rock nelle sue molte sfacettature andando anche a sfociare nel metal.

Ecco il video:

Per semplificarti la vita ho trascritto le tab semplificate, senza spartito, del lick/esercizio. Si capisce abbastanza perfettamente dal video però in ogni caso ho voluto scriverti le tab.

|-----------13--------------14--------------16--------------14------------|
|---12--14------14--12--14------14--12--14------14--12--14------14--------|
|-------------------------------------------------------------------------|
|-------------------------------------------------------------------------| X2
|-------------------------------------------------------------------------|
|-------------------------------------------------------------------------|

|-----------13------------------------------------------------------------|
|---12--14------14--12----------------------------------------------------|
|-----------------------13--11--10----------------------------------------|
|-----------------------------------11--9---------------------------------|
|------------------------------------------11--9--8-----------------------|
|----------------------------------------------------9--7--9--------------|

Se vuoi conoscere altri lick clicca questo link: Lick Chitarra.

Share Button

3 Comments

  1. ciao =) innanzitutto complimenti per il sito, è ricco e ben fatto. volevo chiederti qualche informazione sullo shredding, di cosa si tratta? sono una serie di note eseguite velocemente con plettrata alternata? per questa tecnica sono migliori i plettri duri? è una tecnica che mi ha affascinato molto e vorrei saperne di più.
    Complimenti ancora =)

  2. David Carelse

    August 2, 2011 at 8:26 am

    Ciao Gabriele, grazie per i complimenti, tra poco allora scriverò un articolo sullo shredding.

  3. stefano biscioni

    August 10, 2011 at 3:27 pm

    Bello e facile da imparare con le tab. Grazie e se ci metti altri licks on line con le tab ci fai proprio felici ! Ciao e buone vacanze.

Leave a Reply

Your email address will not be published.

*

(C) Copyright - DMC srls - Via Ampere 16 - Padova 35136 (PD) - david@suonarechitarra.com - PRIVACY