Suonare Chitarra . com

Lezioni di Chitarra e Tutorial per Imparare e Migliorare


Lezioni di Chitarra Elettrica: Esercizi di Legato

Share Button

Lezioni di Chitarra Elettrica: oggi vediamo un ottimo esercizio che riguarda la tecnica del legato.

Eccoci con un’altra lezione di chitarra elettrica! Con la lezione di oggi andiamo ad approfondire la tecnica del legato (se non conosci la tecnica del legato iscriviti alle lezioni di chitarra gratuite).

Premessa numero 1: vale la pena ricordare che non si deve utilizzare la tecnica del legato solo ed esclusivamente come un modo di suonare che ti predispone meglio alla velocità. Non utilizzare mai il legato per andare più veloce. Il legato deve essere utilizzato come una diversa forma di espressione.

Il legato produce un suono diverso rispetto a come suonerebbe un passaggio di note tutte plettrate allo stesso modo.

Premessa numero 2: utilizzare delle basi di batteria (clicca per scaricarle) al posto del metronomo per esercitarsi fa bene. Utilizzale sempre per esercitarti o quando suoni solo per improvvisare.

Ed ora passiamo all’esercizio di oggi che ho scovato in internet e che potrai utilizzare anche come un lick per canzoni Hard Rock o Metal:

Dal video si capiscono molto bene le note e le posizioni dei tasti da suonare, comunque in ogni caso anche in questa lezione di chitarra ti ho preparato le tab semplificate:

|-----12--13--15--13--12--------------------------------------------------------|
|-------------------------15--13--12--13-15--13--12-----------------------------|
|----------------------------------------------------14--12--10--9--10--12--10--|
|-------------------------------------------------------------------------------|
|-------------------------------------------------------------------------------|
|-------------------------------------------------------------------------------|

|-------------------------------------------------------------------------------|
|-------------------------------------------------------------------------------|
|-----9-------------------------------------------------------------------------|
|--------12--10--9--10--12--10--9-----------------------------------------------|
|----------------------------------12--10--8--10--12--10--8---------------------|
|------------------------------------------------------------12--10--8--7--8----|

|-------------------------------------------------------------------------------|
|-------------------------------------------------------------------------------|
|-------------------------------------------------------------------------------|
|-------------------------------------------------------------------------------|
|-------------------------------------------------------------------------------|
|-----10--8--7--5---------------------------------------------------------------|
Share Button
Vota questo articolo!
Ti è piaciuto questo articolo? Se vuoi essere avvisato/a dei prossimi articoli, iscriviti alla newsletter di SuonareChitarra.com inserendo la tua email qui sotto:

2 Comments

  1. Ciao Devid,innanzitutto complimenti per il sito ricco di contenuti utilissimi come questo articolo.
    Solo una richiesta?non è che riusciresti ad indicare sulla tablatura le note che vanno plettrate per aiutarmi a dare un groove al lick ?
    grazie !!!!!

  2. Ciao Francesco, purtroppo non riesco ad ascoltare l’audio perchè in questo momento sono in ufficio… Però, se ti può aiutare, di solito in questo tipo di esercizi si plettra una sola volta per ogni corda (quindi solo la prima nota che fai su quella determinata corda). Le altre note si fanno appunto sfruttando l’hammer-on o il pull-off.
    La plettrata può essere sia verso il basso che verso l’alto, questo dipende appunto dal groove che vuoi dare al lick.

Leave a Reply

Your email address will not be published.

*

You may use these HTML tags and attributes: <a href="" title=""> <abbr title=""> <acronym title=""> <b> <blockquote cite=""> <cite> <code> <del datetime=""> <em> <i> <q cite=""> <strike> <strong>