Suonare Chitarra . com

Il Blog del Corso di Chitarra più Facile. Per chi vuole Divertirsi

Esercizi Chitarra: Legato Rock

Share Button

Esercizi Chitarra: oggi ti presento un esercizio di chitarra che è anche un ottimo lick che sfrutta molto bene le potenzialità del legato in vero stile rock.

Facciamo un pò di pratica! Quello che ti presento oggi non è solamente un esercizio di chitarra molto utile per la tecnica del legato, ma è soprattutto un gran bel lick da utilizzare nelle tue canzoni o nei tuoi assoli (clicca qui se vuoi migliorare le tue improvvisazioni).

E’ un lick trovato su YouTube che mi è piaciuto veramente molto. L’ho provato, mi sono divertito a suonarlo ed ora te lo propongo perchè sono sicuro che ti potrà piacere se suoni rock.

Esercizio di Chitarra Rock in Legato

Il lick o esercizio è questo:

Per facilitarti la riuscita di questo esercizio di chitarra ti ho preparato le tab (senza spartito perchè insieme al video mi sembrava abbastanza inutile):

|---------------------------------------------------------|
|---------------------------------------------------------|
|--------------------------------8--9--11--9--8-----------|
|----------------------8--9--11------------------11--9--8-|
|------------7--9--11-------------------------------------|
|--7--9--11-----------------------------------------------|

|-------------------------------9--11--12--11--9--11------|
|-------------------9--11--12-----------------------------|
|---------8--9--11----------------------------------------|
|--9--11--------------------------------------------------|
|---------------------------------------------------------|
|---------------------------------------------------------|

|--9--10--9--7--------------------------------------------|
|---------------10--7--8--10--8--7------------------------|
|-----------------------------------9--6--7--9--7--6------|
|---------------------------------------------------------|
|---------------------------------------------------------|
|---------------------------------------------------------|

|---------------------------------------------------------|
|---------------------------------------------------------|
|---------------------------------------------------------|
|--9--5--7--9--7--5--7--5--4--2---------------------------|
|---------------------------------------------------------|
|---------------------------------------------------------|

Altri lick a questo link: Lick Chitarra.

Buona suonata e buon rock!

Share Button

4 Comments

  1. Ciao David, molto bello l’esercizio!
    Io però ho problemi di ronzii vari dovuti alla risonanza delle corde libere. Questo mi impedisce la pulizia dell’esercizio.
    Che fare? Ho sentito che qualcuno mette un’elastico sotto le corde al capotasto.
    Che dici?

    Roberto

  2. David Carelse

    July 3, 2011 at 10:13 am

    Ciao Roberto,

    è vero che alcuni utilizzano l’elastico che ferma le corde, ma dato che questa esecuzione la fai per fare un esercizio ti consiglio di farlo senza e utilizzare le varie tecniche del muting per entrambe le mani per stoppare le corde che non devono suonare.

  3. Ciao David, intanto grazie mille per questo blog fantastico dove chi vuole migliorare con la propria ascia trova sempre nuove sfide. Ho due domande per te: per svolgere gli esercizi come quello qui sopra, consigli di imparare e migliorare facendo sempre l’esercizio per intero o è meglio avvicinarsi prendendo confidenza le prime volte separandolo in due o più parti? magari dividendolo nelle due scale di cui è composto. La seconda domanda invece riguarda la postura: mi esercito da seduto, ma faccio difficoltà poi a ripetere gli esercizi da in piedi quando imbraccio la chitarra a tracolla. Hai qualche suggerimento su che posizione adottare da seduti in modo da non sentire la differenza quando poi si cerca di fare le stesse cose in piedi? Grazie mille!

  4. David Carelse

    August 5, 2011 at 10:53 am

    Ciao Emiliano, ottime domande.

    Se non ti riesce facile questo lick allora bisogna scomporlo. Come? In pratica appena trovi un passaggio che ti riesce difficile esegui solo quello, anche se è composto da 3 note e lo ripeti fino a che non ti viene automatico. Poi passi avanti ok? Qui non ti posso spiegare il perchè però funziona alla grande.

    Per quanto riguarda la postura, io proprio per questo cercavo di esercitarmi in piedi. Alcuni chitarristi tengono la chitarra molto alta proprio perchè così l’impostazione è la stessa di quando sei seduto. DIpende anche quanto bassa tieni la chitarra quindi. Vedi tu se è il caso di alzare la chitarra o esercitarsi da alzati.

Leave a Reply

Your email address will not be published.

*

(C) Copyright - DMC srls - Via Ampere 16 - Padova 35136 (PD) - david@suonarechitarra.com - PRIVACY